-- Madrugada tabs and pictures
:tabs
 
-- Index
-- About
-- Tabs
-- Pictures
-- Links
 
 
Dumagraad v.2.0 - password needed

Author/Artist:  Madrugada

Title:          Quite emotional

Album:          Industrial silence

Transcribed by: RH


Intro:


Version #1

    D               Hm              F#m
e||---------2p0------------2----------------2---------------2------|
B||----3--------3------3-----3---------2------2--------2------2----| 
G||------2---------------4-----4---------2------2--------2------2--|
D||-0--------------------------------------------------------------|*2
A||-----------------2----------------------------------------------|
E||---------------------------------2---------------2--------------|


Version #2

      D                   Hm                 F#m *2
e||------------2------------------2------------------2-------------|
B||-------3-------3--3-------3-------3--3-------2-------2----------|
G||----------2------------------4------------------2-------2-------|
D||------------4-------------4----------4--------------------------|*2
A||---5---5----------5----2-------2------------------4-----4-------|
E||------------------------------------------2--2------------------|


Verse 1:

    D               Hm               F#m
e||---------2------------------------------------------------------|
B||-----------3-------------3---------------2---------------2------|
G||----2--------2-------------4---------------2---------------2----|
D||-0------------------4--------4-------4-------4------4--------4--|*3
A||-----------------2----------------------------------------------|
E||----------------------------------2--------------2--------------|

    D               Hm               F#m
e||---------2-------------------------------2----------------------|
B||-----------3-------------3-----------------2--------------------|
G||----2--------2-------------4-----------------2------------------|
D||-0------------------4--------4-------4--------------------------|
A||-----------------2----------------------------------------------|
E||----------------------------------2-----------------------------|


First Chorus:

    F#m              G               D                      C#
e||----------------------------------------------------------------|
B||------------------------------------------------------------6---|
G||---------------------------------------------------------------6|
D||-4----4--4--4--4--5---5--5--5--3--7-----------------------------|
A||-4----4--4--4--4--5---5--5--5--3--5--5--5--5s7--5-5h7p5--4------|
E||-2----2--2--2--2--3---3--3--3--3--------------------------------|

                                   D     A              E
e||-4-------------4--4s5--4--2-----2----------0---------0---0------|
B||----6---------------------------3----------2--0------0------0---|
G||-------6------------------------2-----2----2-----2---1---------1|
D||--------------------------------0-----2----2---------2----------|
A||--------------------------------------0--------------2----------|
E||-----------------------------------------------------0----------|

              D    A    E                  E    F  F#m   E    F  F#m
e||------0----2----0----0---0--------------------------------------|
B||-0----0----3----2----0------0-----------------------------------|
G||-1----1----2----2----1---------1--------------------------------|
D||-2----2----0----2----2------------------2-2--3--4-----2-2--3--4-|
A||-2----2---------0----2------------------2-2--3--4-----2-2--3--4-|
E||-0-------------------0-------------0----0-0--1--2-----0-0--1--2-|


Verse 2:

    D               Hm               F#m
e||---------2-------------------------------2---------------2------|
B||-----------3-------------3-----------------2---------------2----|
G||----2--------2-------------4-----------------2---------------2--|
D||-0------------------4--------4-------4--------------4-----------|
A||-----------------2----------------------------------------------|
E||----------------------------------2--------------2--------------|

    D               Hm               F#m
e||---------2-----------------------------------------------2------|
B||-----------3-------------3---------------2-----------------2----|
G||----2--------2-------------4---------------2-----------------2--|
D||-0------------------4--------4-------4-------4------4-----------|
A||-----------------2----------------------------------------------|
E||----------------------------------2--------------2--------------|

    D               Hm               F#m
e||---------2-------------------------------2---------------2------|
B||-----------3-------------3-----------------2---------------2----|
G||----2--------2-------------4-----------------2---------------2--|
D||-0------------------4--------4-------4--------------4-----------|
A||-----------------2----------------------------------------------|
E||----------------------------------2--------------2--------------|

    D               Hm               F#m
e||---------2-------------------------------2----------------------|
B||-----------3-------------3-----------------2--------------------|
G||----2--------2-------------4-----------------2------------------|
D||-0------------------4--------4-------4--------------------------|
A||-----------------2----------------------------------------------|
E||----------------------------------2-----------------------------|


Second Chorus:

    F#m              G               D                      C#
e||----------------------------------------------------------------|
B||------------------------------------------------------------6---|
G||---------------------------------------------------------------6|
D||-4----4--4--4--4--5---5--5--5--3--7-----------------------------|
A||-4----4--4--4--4--5---5--5--5--3--5--5--5--5s7--5-5h7p5--4------|
E||-2----2--2--2--2--3---3--3--3--3--------------------------------|

                                   D     A              E
e||-4-----------4-2--4s5--4--2-----2----------0--------------0-----|
B||----6---------------------------3----------2--0-----------0-----|
G||-------6------------------------2-----2----2-----2--------1-----|
D||--------------------------------0-----2----2---------2----2-----|
A||--------------------------------------0--------------2----------|
E||-----------------------------------------------------0----------|

              D    A           E                     D    A
e||------0----2--------0-------0---0---0--0----------2----0--------|
B||------0----3--------2--0----0---0---0-----0-------3----2--------|
G||------1----2--------2----2--1-------1--------1----2----2--------|
D||------2----0--------2-------2-------2-------------0----2--------|
A||------2---------0-----------2-------2------------------0--------|
E||-0--------------------------0-------0---------------------------|

    E                        D       A       E
e||-0--0-------0--0----------2---0---0-------0---------------------|
B||-0-----0----0-----0-------3-------2-------0---------------------|
G||-1-------1--1--------1----2-------2-------1---------------------|
D||-2----------2-------------0-------2-------2---------------------|
A||-2----------2---------------------0-------2---------------------|
E||-0----------0-----------------------------0---------------------|


Outro:

    E    F  F#m  E    F  F#m
e||----------------------------------------------------------------|
B||----------------------------------------------------------------|
G||----------------------------------------------------------------|
D||-2-2--3--4----2-2--3--4----2-2--3--4-------7-7h9-9b-9b-9b--b9rp7|
A||-2-2--3--4----2-2--3--4----------------7h9----------------------|
E||-0-0--1--2----0-0--1--2-----------------------------------------|

e||-----------------------------------------------------------12---|
B||------------------------------------------------10---10s12----12|
G||-----------9h11-9h11---9-s11--------------9h11------------------|
D||-----9h10-------------------------------------------------------|
A||----------------------------------------------------------------|
E||----------------------------------------------------------------|

e||-12-------------------------------------------------------------|
B||----12-s10---10--10h12p10---------------------------------------|
G||----------------------------------------------------------------|
D||-----------------------------2-2--3--4-----2-2--3--4---2-2--3--4|
A||-----------------------------2-2--3--4-----2-2--3--4---2-2--3--4|
E||-----------------------------0-0--1--2-----0-0--1--2---0-0--1--2|