-- Madrugada tabs and pictures
:tabs
 
-- Index
-- About
-- Tabs
-- Pictures
-- Links
 
 
Dumagraad v.2.0 - password needed

Author/Artist:   Madrugada

Title:                   The Hour of The Wolf

Album:                   Madrugada

Transcribed by: MB, RH, SES


pm = Palm mute
b  = bend half step
r  = release bend

Intro:

e||-----------------------------------------------|
B||-----------------------------1-----------------|
G||-----------------------------2-----------------|
D||--------0--2--2--2--0--------2-----------------|
A||-0h2h3-----------------3--2--0-----------------|
E||-----------------------------------------------|

e||-----------------------------------------------|
B||-----------------------------------------------|
G||-----------------------0--0--------------------|
D||--------0--2--2--0--2--------------------------|
A||-0h2h3-----------------------------------------|
E||-----------------------------------------------|

e||-----------------------------------------------|
B||---------------------------------------1-------|
G||------0--2--2--4--2--------------------2-------|
D||-0h2-----------------2--0--2--0--------2-------|
A||---------------------------------3--2--0-------|
E||-----------------------------------------------|

e||-----------------------------------------------|
B||-----------------------------1-----------------|
G||-----------------------------2-----------------|
D||--------0--2--2--2--0--------2-----------------|
A||-0h2h3-----------------3--2--0-----------------|
E||-----------------------------------------------|

e||-----------------------------------------------|
B||-----------------------------------------------|
G||--------------------1-----------------------1--|
D||-0h2--0----------2--2----0h2--0----------2--2--|
A||---------0h2--0--2--2------------0h2--0--2--2--|
E||-----------------0-----------------------0-----|
                       pm                      pm

e||-----------------------0--0--0--0--0-----------|
B||-----------------------0--0--0--0--0-----------|
G||--------------------1--1--1--1--1--1-----------|
D||-0h2--0----------2--2--2--2--2--2--2-----------|
A||---------0h2--0--2--2--2--2--2--2--2-----------|
E||-----------------0-----0--0--0--0--0-----------|
                       pm

    Am                      E
e||----------0-----------0-----------0-----------0|
B||----------1-----------1-----------0-----------0|
G||----------2-----------2-----------1-----------1|(Same riff
D||----------2-----------2-----------2-----------2|in verse)
A||-0--3--0-----0--3--0--------------2-----------2|
E||-------------------------0--3--0-----0--3--0---|

    Am                      E
e||----------0-----------0-----------0-----------0|
B||----------1-----------1-----------0-----------0|
G||----------2-----------2-----------1-----------1|
D||----------2-----------2-----------2-----------2|
A||-0--3--0-----0--3--0--------------2-----------2|
E||-------------------------0--3--0-----0--3--0---|


Verse 1:

Am				  E
Twenty thousand eyes at the gates
    Am				    E
The finest come to you and it won't wait
       Am
When a wolf arise, from a mountain pass
       E
On the night of shattered glass
        Am
Can you break 'em down, can you shake 'em down
	 E
Will you leave 'em lying cold



Chorus:

	  F			Am
You gotta run to the ones that made you
        Dm                 Am
Fall so deep into valley below
	  F                       Am
You gotta pray they will never betray you
              E
Never let you go, never let you go, never let you go



Solo 1: Am    E    Am    E 



Verse 2:

Am					E
You look like a man undone by all that fire there in your soul
Am					E
I can't see you, I can't hear you, I can't speak to you at all
       Am
When a wolf arise, from a mountain pass
       E
On the night of shattered glass
        Am
Can you shake 'em down, can you break 'em down
	 E
Will you leave 'em lying cold, cold



Chorus


Solo 2:

    F                     Am          Dm            Am
e||-13--13--13--15--13---12------12--10------8s10--12-|
B||---------------------------------------------------|
G||---------------------------------------------------|
D||---------------------------------------------------|
A||---------------------------------------------------|
E||---------------------------------------------------|

    F                     Am           E
e||-13--13--13--15--13---12------12----12--10-12-12---|
B||---------------------------------------------------|
G||---------------------------------------------------|
D||---------------------------------------------------|
A||---------------------------------------------------|
E||---------------------------------------------------|
                                                Ends on Am
e||-10-12-10---8-10-8---7s8s7---------5---------------------|
B||-------------------------------------5-------------------|
G||--------------------------------7b-----br7p5---7brp5-----|
D||-----------------------------------------------------7-7-|
A||---------------------------------------------------------|
E||---------------------------------------------------------|