-- Madrugada tabs and pictures
:tabs
 
-- Index
-- About
-- Tabs
-- Pictures
-- Links
 
 
Dumagraad v.2.0 - password needed

Author/Artist:  Madrugada

Title:          New Woman/New Man

Album:          Madrugada

Transcribed by: RH

Tuning: 1/2 step down to Eb Ab Db Gb Bb Eb

Lyric is taken from the madrugadamusic.com forum

F sus2: x33011
C sus2: x35533
C#sus2: x46644
D#sus2: x68866

Fig 1(Piano arranged for guitar):

e||----------------------------------------------------------------------|
B||-13--11--13--13--11--13-----------------------------------------------|
G||--------------------------13---12---10--------------------------------|
D||----------------------------------------------------------------------|
A||----------------------------------------------------------------------|
E||----------------------------------------------------------------------|

Fig 2(Piano arranged for guitar):
    
e||----------------------------------------------------------------------|
B||-13--11--13--13--11--13-----------------------------------------------|
G||--------------------------13---12---13----13--15--13--12---13----10---|
D||----------------------------------------------------------------------|
A||----------------------------------------------------------------------|
E||----------------------------------------------------------------------|

Fig 3(Piano arranged for guitar):

e||----------------------------------------------------------------------|
B||-13--11--13--13--11--13-----------------------------------------------|
G||--------------------------13---12---13----13--15--13--12--------------|
D||----------------------------------------------------------------------|
A||----------------------------------------------------------------------|
E||----------------------------------------------------------------------|

Gm* Bridge:
    F
e||-------------|
G||-------------|
D||-------5-----|
A||-3--4--5-----|
E||-------3-----|


Intro:

Fsus2                C#sus2      Csus2     C#sus2
Fig 1 x 2          Fig2

Fsus2                C#sus2      Csus2
Fig 1 x 2          Fig3


VERSE 1:

Fsus2
  She hits me like a jetstream

Burning everything, sets a torch to my bone dry soul
                                     C#sus2
And all the ones that lay dead and cold
       Csus2        Fsus2
Now swings and roams


And the cartwheels and the cartwheels and the windmills knock them down

I don't want anyone else around
             C#sus2                    Csus2        Fsus2
Just want to play around with this new friend I found


I want her home with me

I want her alone with me

I want her to see all of me

A homeless child screams in me
              C#m     Csus
This is who I am

Oh woman
                 Fsus2       C#sus2    Csus2
New woman, new man


VERSE 2:

Fsus2
   Well, it happened once again

The same thing that happened time and time again

And I should look the other way
       C#sus2         Csus2      Fsus2
But my eyes they just want to stay

Hips and thighs and eyes

And yellow, shiny hair

She ain't no feature in the promised land
   C#sus2     Csus2
Just a new woman
                Fsus2        C#sus2   Csus2       Fsus2       C#sus2   Csus2
New woman, new man


BRIDGE:

Gm*                   C#sus2        Csus2         D#sus2   Fsus2
  I think of her against me.   How we wrestle   in white   sheets
Gm*         D#sus2      Csus2     D#sus2   Fsus2    D#sus2  C#sus2
  Her body calling   out to me   on   broad, wide   winter   streets

   Fsus2     D#sus2    C#sus2          Csus2       Fsus2
I've seen   her      eyes,      I've   seen her   face
    Fsus2  D#sus2  C#sus2       Csus2      Fsus2
Now I    won't    sleep   with   no-one    else
  Fsus2   D#sus2  C#sus2  Csus2     Fsus2
I warming ...            against my hand
   Fsus2   D#sus2   C#sus2       Csus2    Fsus2
And    any          old fool will understand


OUTRO:

                  Fsus2      C#sus2  Csus2        Fsus2       C#sus2  Csus2
New woman, new man
                            Fsus2
New woman,New woman, new man