-- Madrugada tabs and pictures
:tabs
 
-- Index
-- About
-- Tabs
-- Pictures
-- Links
 
 
Dumagraad v.2.0 - password needed

Author/Artist:   Madrugada

Title:                   Whats on your mind?

Album:                   Madrugada

Transcribed by: RH


Probably played with capo at the first freet.

Fm: 133211
D#: xx1343 or x68886
C#: x43121 or x46664
G#: 431114 or 466544
E : xxx454


Intro:

e||-4-----4-----4-----4-----3-----3-----3-----3----|
B||----6-----6-----6-----6-----6-----6-----6-----6-|
G||------------------------------------------------| x 2
D||------------------------------------------------|
A||------------------------------------------------|
E||------------------------------------------------|


Verse 1:

Fm
You were at my door

I heard you knocking but I didn't care at all
			    D#
I had been in all night just staring at the wall
 			Fm
I didn't really want to see you anymore

Coming from the road

You took your coat off and you threw it on the floor
			     D#
You said "I can't believe you wanna hurt me so"
			     C#
I said "I'm not supposed to be like this you know"
			    Fm
Well, I just had to let you go


Chorus 1:

       G#      D#  Fm
What's on your mind?
            G#      D#  Fm
When you're lost in time
       G#      D#            C#
What's on your mind? Tell me why
			    Fm
Why does it have to be this way?


Interlude:

Intro riff


Verse 2:

Fm
You were in that dream that I was dreaming

I was dreaming in a dream
			   D#
Your nylon dress and I was floating back downstream
		           Fm
I wanted love to come and swallow everything


Solo: 

    Fm                                D#                 Fm
e||------------------------------------------------------------|
B||------------------------------------------------------------|
G||------------------------------------------------------------|
D||------------------------------------------------------------|
A||------------------------------------------------------------|
E||-6--6s8-----8s6---8-8----8s6s4--4--6------6-6--4-6--6--6s8--|


Fm
Everything gets real

Sooner or later, it doesn't matter how you feel
                                 D#
You slammed that door shut on the night of glass and steel
                         C#
I cannot blame you for believing what you believe
	 		   Fm
Well, I just had to let you go


Chorus 2:

       G#     D#   Fm
What's on your mind?
            G#      D#  Fm
When you're lost in time
       G#      D#             C#
What's on your mind, tell me why
			    A#m
Why does it have to be this way?


Bridge:
		  C#          G#
Why do you always stay Miles away?
	        D#
And two steps behind
			A#m
Where the past is still living
		 C#
Beautiful and forgiven
	   G#
Do you not see?
		     D#
That you're living a dream
E
Hey


Chorus 1: x 3


Outro:
                                                         Fm
e||-4-----4-----4-----4-----4-----4-----4-------3--------4--|
B||----6-----6-----6-----6-----6-----6-----6---------6---6--|
G||------------------------------------------------------5--|
D||------------------------------------------------------3--|
A||---------------------------------------------------------|
E||---------------------------------------------------------|