-- Madrugada tabs and pictures
:tabs
 
-- Index
-- About
-- Tabs
-- Pictures
-- Links
 
 
Dumagraad v.2.0 - password needed

Author/Artist:  Madrugada

Title:          Highway of light

Album:          Madrugada

Transcribed by: RH


Am   : 577555
G    : 320033
F    : 133211
E    : 022100
E*   : x79997
Dm   : x57765


INTRO:

Am   G   F   E   F   E   Am   E*


Verse 1:

Am           G                 F
Highway of Light   Lights the way
           E                 F
Into the night    Puts all flesh
              E         Am    E*
All human spirit   To rest

Am                  G                   F
The clamor and the clang   The bells we rang
              E     F                           E
The sound of wheels   I've got a fresh set of ears
                    Am          E*
And they ain't listening   Oh no

         Am                G                F
For soon it all appears in vain   Even the rain
       E                  F
It will stop   My eyes are black
           E                   Am         E*
My jealous ...   And I feel nothing   No more


Solo 1:

    Am           G      F            E     F        E
e||---------------------------------------------------|
B||---------------------------------------------------|
G||---------------------------------------------------|
D||---------------------------------------------------|
A||--------------7--b----------------7-br--8--8-9-8-7-|
E||-s5--7s8-7-8--------s5--7s8-7-8--------------------|

              Am     E*
e||---------------------------------------------------|
B||---------------------------------------------------|
G||------------------7s9brbr--------------------------|
D||-----------5s7br-----------------------------------|
A||-7s11--11------------------------------------------|
E||---------------------------------------------------|


Verse 2:

Am                           G
Headlights pan and drape the wall
F                     E
Darkness thatís surrounding all
 F                    Am
We chase the highway on and on
                    E*
Tonight the highway is our home

Am             G               F
Highway of the Light   Deliver me
        E                   F
To the night   That we might sleep
          E                 Am
And disappear   No-one may ever
          E*
Find us here


Bridge:

Dm              Am
  An endless string of lights
   E*                 Am
Meanders through the night

             Dm
e||-------------|
B||-------------|
G||----------7--|
D||----------7--|
A||----------5--|
E||-5--7--8-----|                     Am
               Through houses with gaping doors
        E*
Where no-one's living any more


Solo 2:

Am   G   F   E   F   E   Am   E*

Am   G   F   E   F   E   Am   E*


Outro:

Am           G                   F
  Highway of Light   Lights the way
           E                F
Into the night   Puts all flesh
            E          Am
Of human spirit   To rest