-- Madrugada tabs and pictures
:tabs
 
-- Index
-- About
-- Tabs
-- Pictures
-- Links
 
 
Dumagraad v.2.0 - password needed

Author/Artist:  Madrugada

Title:          Valley Of Deception

Album:          Madrugada

Transcribed by: RH


Lyric is taken from the madrugadamusic.com forum.

Intro:

    C                                           Em
e||-------------------------------------------------------------------------------------|
B||-1-----------1-----------1-----------1---3---0-----------0-----------0-----------0h1-|
G||-----0-----------0-----------0-------------------0-----------0-----------0-----------|
D||---------2-----------2-----------2-------------------2-----------2-----------2-------|
A||-3-----------------------------------------------------------------------------------|
E||---------------------------------------------0---------------------------------------|

    C                                           Em
e||-------------------------------------------------------------------------------------|
B||---------1-----------1-----------1---1---3---0-----------0-----------0---------------|
G||-0-----------0-----------0-----------------------0-----------0-----------0-----------|
D||-----2-----------2-----------2-----------------------2-----------2-----------2-------|
A||-------------------------------------------------------------------------------------|
E||---------------------------------------------0---------------------------------------|

    C                                               Am
e||-------------------------------------------------------------------------------------|
B||-1-----------1-----------1-----------1-----------------------1-----------1-----------|
G||-----0-----------0-----------0-----------0---------------2-------2-----------2-------|
D||---------2-----------2-----------2-----------2-------2---------------2-----------2---|
A||-3-----------------------------------------------0-----------------------------------|
E||-------------------------------------------------------------------------------------|

                G                                               D
e||-------------------------------------------------------------2-----------2-----------|
B||-1---------------------------3-------3-----------3---------------3-----------3-------|
G||-----2-------------------0---------------0-----------0---------------2-----------2---|
D||---------2-----------0-----------0-----------0-----------0---0-----------------------|
A||-----------------2-------------------------------------------------------------------|
E||-------------3-----------------------------------------------------------------------|

                           C                                            Em
e||-2-----------2h3p2--0---0-----------0-----------0-----------3s2--0---0-----------0---|
B||-----3----------------------1-----------1-----------1--------------------0-----------|
G||---------2----------------------0-----------0-----------0--------------------0-------|
D||-------------------------------------------------------------------------------------|
A||------------------------3------------------------------------------------------------|
E||---------------------------------------------------------------------0---------------|

                          D                                               Em
e||---------0-----------0h2--3--2-----------2-----------2-----------2--2--0---0---------|
B||-0-----------0-------0h3---------3-----------3-----------3-------3-------------0-----|
G||-----0-----------0-------------------2-----------2-----------2---------------------0-|
D||-------------------------------------------------------------------------------------|
A||-------------------------------------------------------------------------------------|
E||-----------------------------------------------------------------------0-------------|


e||-0------------------0----------------------------------------------------------------|
B||-----0--------------0----------------------0-----------------------------------------|
G||---------0----------0--0-------0-----0--------0-----------0--------------------------|
D||-------------2------2-----2-------2-----2---------2----------------------------------|
A||--------------------2--------2------------------------2------------------------------|
E||--------------------0----------------------------------------------------------------|

VERSE 1:

Em                     D
When you wake up in the morning 

           C                   G
Iím still sleeping by your side

            Em                          D
Last nightís sweetness drifts from your fingers

                C                 G        
Sweetness lingers and we must hide.

             C               G
All the loving and the longing

              C                          G
Weíre still hungry, yes , and weíre running

            D             C
and in the valley of deception 

                  G
thatís where Iíve gone

            D              C
Yes in the valley of deception

                      G  
thatís where I lied down.

VERSE 2:

In the arms of sweet deception 
I will rest my stupid head
Off tide arrested 
yes and you can trust me
And I trust anything 
that I have said
Do you love me let me hear it
Do you want me I need the feeling
ícause in the valley of deception
Thatís where Iíve gone. 
Yes in the valley of deception
Thatís where I íve gone, 
where Iíve gone
Yes in the valley of deception
Thatís where I lied down

OUTRO(Almost the same as the introriff):

C    Em                 C          Em
         Thatís where I lied down

       C          Am
Where I lied down

       G            D          C       Em     D      Em      G
In the valley of deception.

             D              C
Yes in the valley of deception
                   G
Thatís where Iíve gone