-- Madrugada tabs and pictures
:tabs
 
-- Index
-- About
-- Tabs
-- Pictures
-- Links
 
 
Dumagraad v.2.0 - password needed

Author/Artist:   Sivert H°yem

Title:                   What Have I Done?

Album:                   Long Slow Distance

Transcribed by: RH


Capo on 3rd Fret

G - 320003

INTRO AND VERSE ARE PLAYED DIFFERENT ALL THE TIME

    Em        A          D        G
e||-------------------0----2-0-----------------|
B||----0--------2-2-3----------3----0----------|
G||------0----------------------------0--------|
D||-2------2-------------0--------0------------|
A||-2---------0-------------------2------2-----|
E||-0-----------------------------3------3--2--|


INTRO
Em  A   D   G x 2

VERSE 1
Em  A   D   G x 3
Em  A

CHORUS
D   G   D   G   C G  A

INTERLUDE
    Em        A          D          G
e||-------------------0----2-3-5----------------------|
B||----0--------2-2-3------------3--3h5p3-2h3p2-0h2p0-|
G||------0--------------------------------------------|
D||-2------2-------------0----------------------------|
A||-2---------0---------------------------------------|
E||-0-------------------------------------------------|

    Em        A          D          G
e||-------------------0----2-3-5----------------------|
B||----0--------2-2-3------------3--3-3-2-0-----------|
G||------0--------------------------4-4-2-0-----------|
D||--------2-------------0----------------------------|
A||-----------0---------------------------------------|
E||---------------------------------------------------|

    Em        A          D          G
e||-------------------0--2-2h3p2----------------------|
B||-2h3-2-------2-2-3------------3--0----------3------|
G||-2---2-----------------------------2s4--2s4---4-2-0|
D||---------------------------------------------------|
A||---------------------------------------------------|
E||---------------------------------------------------|

    Em        A          D          G
e||-------------------0----2-0------------------------|
B||----0----------2-3----------3------0---------------|
G||------0--------2---------------------0-------------|
D||-2------2-------------0----------0-----------------|
A||---------------------------------2------2----------|
E||---------------------------------3------3--2-------|


VERSE 2

CHORUS
D   G   D   G X 2
C G  A