-- Madrugada tabs and pictures
:tabs
 
-- Index
-- About
-- Tabs
-- Pictures
-- Links
 
 
Dumagraad v.2.0 - password needed

Author/Artist:  Madrugada 

Title:          Vocal

Album:          Industrial Silence

Transcribed by: DMS og RH


Standard tuning (EADGBE)

The main riff is played with small variations all the time.

When you play A in the verses, you can change a little bit between
A and Asus.

Vibrato = ~


Intro, verse (fig 1 and the next time fig 2, then fig 1, etc.):

    Em         D         A

e||-0--0----2--2-----0--0------------------------------|
B||-0----0--3----3---2----2----------------------------|Fig 1.
G||-0-------2------2-2------2--------------------------|
D||-2-------0--------2---------------------------------|
A||-2----------------0---------------------------------|
E||-0----------------0---------------------------------|

    Em         D         A

e||-0--0----2--2-----0--0------------------------------|
B||-0----0--3----3---2----2-----2----------------------|Fig 2. 
G||-0-------2------2-2------2-----2--------------------|
D||-2-------0--------2---------------------------------|
A||-2----------------0---------------------------------|
E||-0----------------0---------------------------------|


Solo 1(This is not correct. I need to figure out some bending):

e||-------------------------------------------------------------|
B||-------------------------------------------------------------| 
G||-------------------------------------------------------------|
D||-------------7---------------------5--------10s14--14s12-----|
A||-7s12-12s10----7s12---5s12--12s10-----5s12-------------------|
E||-------------------------------------------------------------|

e||-------------------------------------------------------------|
B||-------------------------------------------------------------| 
G||-------------------------------------------------------------|
D||-12s9-----------------7--------------------------------------|
A||---------7s12-12s10-----7s12---------------------------------|
E||-------------------------------------------------------------|

Solo 2(With disturtion):

e||------------------------------------------------------------|
B||------------------------------------------------------------|
G||-7h9--7h9--7h9-(9)p7--9---7--------9-----9--------------9---|
D||----------------------------11-------11-----11---9--7---9---|
A||--------------------------------------------------------7---|
E||------------------------------------------------------------|

e||------------------------------------------------------------|
B||------------------------------------------5-----------------|
G||-7h9--7h9--7h9-(9)p7--9--9----------------6-------------9---|
D||----------------------------11------------7------9--7---9---|
A||------------------------------------------7-------------7---|
E||------------------------------------------------------------|

e||------------------------------------------------------------|
B||------------------------------------------------------------|
G||----------------7------7--9--7s9b---9----9------------------|
D||-----7h9-7--7h9----7h9----------------11---11--9--7-6s7-9---|
A||-7h9--------------------------------------------------------|
E||------------------------------------------------------------|

e||-----------------------------------------------------------|
B||-----------------------------------------------------------|
G||-----------------------------------------------------------|
D||-----7h9-7-------7------7-7h9-7~~~-------------------------|
A||-7h9---------7h9----7h9------------------------------------|
E||-----------------------------------------------------------|


Intro:
(6x Em D A)

Verse 1:

Em                  D
You better run, you better run
                     A                
You better not wait too long
Em                         D
You better run, you better run
                               A                     
You better run for you have a heart
Em                         D
So let's start, so let's start
                             A      
So let's start, tear it all apart
Em                         D
You better run, you better run
                               A
You better run for you have a heart


Chorus :

G
Well, oh, well
                D                     A
Oh, you know it's only so much I can take
G                            D                  A
I buried my head in that pillow for a million days
       G                 D                         A
So, oh, oh well, I'm sorry but I do not care to wait
G           Bm              A
Dare not walk through the light
G           Bm              A
Dare not walk through the light


Solo 1 (4x Em D A)


Verse 2:
Em                      D
Your vision's travelled far today
      A
So why don't you run away
Em                         D
Your vision's travelled far today
           A
Like in the times when you say
Em                     D                            A
I have a cry, I have a cry, and I will not be contained
Em                     D                            A
I have a cry, I have a cry, and I will not be contained, no


Chorus:
G
Oh, well
                  D                  A
Oh you know it is only so much I can take
G                           D               A
Buried my head in that pillow a million days oh, oh
     G            D                      A
Oh well, I'm sorry but I do not care to wait
G                 Bm              A
Oh, dare not walk through the light
G                Bm           A
Dare not walk through the light, oh


Solo 2(4x Em D A)


G                              Bm     A
Oh, dare not walk through the light
G                           Bm   A
Dare not walk through the light
G        Bm      A      G     Bm     A
Uuuhh uuuhhh uuuhh uhuhuuu uh uuuhh