-- Madrugada tabs and pictures
:tabs
 
-- Index
-- About
-- Tabs
-- Pictures
-- Links
 
 
Dumagraad v.2.0 - password needed

Author/Artist:  Madrugada 

Title:          Beatyproof

Album:          Industrial Silence

Transcribed by: DMS


Standard tuning (EADGBe)

Main-riff (verse):

e|----------------------------------------------|
B|----------------------------------------------|
G|------------------5-5-5-5-5-5-5---------------|
D|--3-3-3-3-3-3-3-3-3-3-3-3-3-3-3-0--3-3-3-3-3--|
A|--5-5-5-5-5-5-5-5-5-5-5-5-5-5-5-0--1-1-1-1-1--|
E|----------------------------------------------|

e|----------------------------------------------|
B|----------------------------------------------|
G|----------------------------------------------|
D|----------------------------------------------|
A|-----------1-1-1-1-1-1------------------------|
E|--0--1--3--3-3-3-3-3-3------------------------|
             ^ ^ ^ ^ ^ ^
             Or maybe 35xxxx's?
Chorus:

F             Am         Dm                Dm-riff
  What you got  is what gets me every time

F             Am             Dm           Dm-riff
  The way you   piss on everything real

...and so on.


Dm-riff (played sometimes...):

e|--1-0----|
B|------3--|
G|---------|
D|---------|
A|---------|
E|---------|


Outro:

e||---------------------------------------------------------------|
B||-----------------------------------3---------------------------|
G||--------------3--------------------2---------------------------|
D||-3--------------3-3-3-3-3-3--3--5--0---------------------------|
A||-5-Many times---5-5-5-5-5-5--5---------------------------------|
E||---------------------------------------------------------------|