-- Madrugada tabs and pictures
:tabs
 
-- Index
-- About
-- Tabs
-- Pictures
-- Links
 
 
Dumagraad v.2.0 - password needed

Author/Artist:  Madrugada

Title:          Hands up - I love you

Album:          The Nightly Disease

Transcribed by: DMS & RH


Standard tuning (EADGBE)

Intro and Verse 1:

    Am    F
e||-0-----1-----0-----1-----0----------1--------1-----0-----1---|
B||-1-----1-----1-----1-----1------1-0-1----------1---1-----1---|
G||-2-----2-----2-----2-----2----------2------2-----2-2-----2---|
D||-2-----3-----2-----3-----2----2-----3----3---------2-----3---|
A||-0-----3-----0-----3-----0----------3--------------0-----3---|
E||-------1-----------1----------------1--------------------1---|


e||-0----------1--------1---------------------------------------|
B||-1------1-0-1----------1-------------------------------------|
G||-2----------2------2-----2-----------------------------------|
D||-2----2-----3----3-------------------------------------------|
A||-0----------3------------------------------------------------|
E||------------1------------------------------------------------|


Riff before Solo 1 (0:47):

    Am                      F
e||-----------------------------------------------------------|
B||-----------------------------------------------------------|
G||-0-h-1-/-2---2-/-5---4-------------------------------------|
D||-------------------------2-/-3-----------------------------| x2
A||-----------------------------------------------------------|
E||-----------------------------------------------------------|


Solo 1 (1:04):

    Am                            F
e||-----------------------------------------------------------|
B||-----------------------------------------------------------|
G||-----------------------------------------------------------|
D||-----------------------------------------------------------| x2
A||------5-5/7-5----5--------5------5-5/7-5----5--------------|
E||-5--8---------8-----5--8----5--8----------8----5-8---------|


VERSE 2:

Am   F x4

(1:53 -2:09) G F G F

Am   F x6


Bridge (2:58 -4:00):

    G     Dm           Am   C             G     Dm           Am
e||-3-----0-------1-0--0------------------3-----0-------1-0--0--|
B||-3-----3------------1--------------1---3-----3------------1--|
G||-0-----2-----2------2----------0-------0-----2-----2------2--|
D||-0-----0---0--------2--------2---2-----0-----0---0--------2--|
A||-2------------------0----3-------------2------------------0--|
E||-3-------------------------------------3---------------------|

                      G     Dm           Am          E
e||-------------------3-----0-------1-0--0----------------------|
B||----------------1--3-----3------------1-----1-0--------------|
G||------------0------0-----2-----2------2--------------0-------|
D||--------------2----0-----0---0--------2---2-------2--2-------|
A||--------3----------2------------------0-----------2--2-------|
E||-------------------3------------------------------0--0-------|
             Am                   F         Am                F
e||--------------0-1-3-1-0------------------0-0-1-3-1-0-------1-|
B||------------1------------3-1-0-1-1--1-1--1-----------3-1-0-1-|
G||-4-2--------2------------------2-2--2-2--2-----------------2-|
D||-2-0-5-4--2-2------------------3-3--3-3--2-----------------3-|
A||-----3-2--0-0------------------3-3--3-3--0-----------------3-|
E||-----------------------------------------------------------1-|


Verse 3:

Am  F x6


Outro solo (4:50):

       Am                         F
e||-----------------------------------------------------------|
B||-----------------------------------------------------------|
G||-----------------------------------------------------------|
D||-----------------------------------------------------------|
A||------5-5/7-5----5--------5------5-5/7-5----5--------------|
E||-5--8---------8-----5--8----5--8----------8----5-8---------|

       Am                         F
e||-----------------------------------------------------------|
B||-----------------------------------------------------------|
G||-----------------------------------------------------------|
D||-----------------------------------------------------------|
A||------5--5/7----5---------5------5-5/7-5---7/5-------------|
E||-5--8---------8-----5--8----5--8---------8-----5-8---------|

       Am                         F
e||-----------------------------------------------------------|
B||-----------------------------------------------------------|
G||-----------------------------------------------------------|
D||---------------------------------------5-------------------|
A||------5-5/7-5----5--------5------5-5/7---7-5---------------|
E||-5--8---------8-----5--8----5--8-------------8-5-8---------|

       Am                         F                     Am
e||-----------------------------------------------------------|
B||-----------------------------------------------------------|
G||-----------------------------------------------------------|
D||-----------------------------------------------------------|
A||------5--5/7----5---------5------5-5/7-5---7/5-------------|
E||-5--8---------8-----5--8----5--8---------8-----5-8---------|