-- Madrugada tabs and pictures
:tabs
 
-- Index
-- About
-- Tabs
-- Pictures
-- Links
 
 
Dumagraad v.2.0 - password needed

Author/Artist:   Madrugada 

Title:                   Step into this room and dance for me

Album:                   Nightly Disease

Transcribed by: RH


The lyric is from the official Madrugada website.

Riff in intro and verse:

e||---------------------------------------------------------------|
B||---------------------------------------------------------------|
G||-------0---------------3---------------------------------------|
D||---1-----1---1---1-------3-------3---3---3---3---3---3---3---3-|
A||-3---3-----3---3---3-1-----1-------3-------3-------3-------3---|
E||-----------------------------0h1-------1-------1-------1-------|

Riff in the chorus:

e|----------------------------|
B|----13h15-15/16-15-13----13-|
g|-13-------------------12----|



Intro(Riff):


Verse(Riff):

Closer, move in closer
Closer now than, than ever before
I doubt it that you can survive
So far from your trenches and your friends
This is where competition starts and all of that ends


Prechorus:
F5
G#            D#
  I sense a lot of tension
 Cm
Loose, loose
G#              D#
 Pull out your arsenal
Cm
 Dance

Chorus:
                          G#
Step into this room and dance for me
                          Cm
Step into this room and dance for me

G#  Cm  G#      Fm


Verse(Riff):

By now we should know the music and the steps
I never asked, I never set you up
A little something for me?
A little something thrown back at me?


Prechorus:

G#                            D#
  This is the floor, these are the rules, these are the moves
            Cm
This is the room in which we dance
G#              D#               Cm
  Close the door, say you will dance


Chorus:
G#  Cm (Many times)


Outro:

    G              Cm                        G#         Fm  Cm
e||-----------------------------------------------------1---8--|
B||-----------------------------------------------------1---8--|
G||------------------------------------------5-5-5-5----1---8--|
D||-5-5-5-5-5-/8---10--10--10--10-10--10-/---6-6-6-6----3---10-|
A||-5-5-5-5-5-/8---10--10--10--10-10--10-/---6-6-6-6----3---10-|
E||-3-3-3-3-3-/6---8---8---8---8--8---8--/---4-4-4-4----1---8--|


Outro heard on live performance:

e||----------------------------------------------4--------1---8--|
B||------------------------4p3-----------------4---4------1---8--|
G||---------------------5-------5------------5-------5----1---8--|
D||------------------5-------------5-------6-----------6--3---10-|
A||---------------3----------------------6----------------3---10-|
E||-3-3-3-3-3--6-----------------------4------------------1---8--|