-- Madrugada tabs and pictures
:tabs
 
-- Index
-- About
-- Tabs
-- Pictures
-- Links
 
 
Dumagraad v.2.0 - password needed

Author/Artist:  Madrugada

Title:          Only When you're gone

Album:          Nightly Disease

Transcribed by: RH



Intro and Verse Riff:

    Em                          Am
e||---------------------------------------------------------|
B||-----------------------------------1-------------1-------|
G||-------0-------------0---------2-----2---2---2-----2---2-|
D||---2-----2---2---2-----2---2-----2-----2-------2-----2---|
A||-----2-----2-------2-----2---0-------------0-------------|
E||-0-------------0-----------------------------------------|


Intro:

Em


Chorus:

                 Am                    Em
Only when you're gone. Only when you're gone
                 Am                              Em
Only when you're gone and away, only when you're gone


Verse 1:
                        Am
Gonna need a hammer and nails
                         Em
To construct this bitter love song
	                Am
This cruel testament in song
                                Em
That rings out only when you're gone


Chorus:


Verse 2:

Em
Rude are the tongues of love that speak of mercy for us all
                          Am
That leave us only with a song
 			   Em
That leave us only with a song
			    Am
Now it's a cold and hollow whisper
				 Em
That consumes my body when you?re gone


Chorus:

                          G        Bm
And it's only when you're gone and away
Em         
 Your ghost runs through me in that special way
            G             Bm
It's a nice hotel, my hometown
Em
 Come feel the darkness of this prison cell

e||-----------|
B||-----------|
G||-0-0-0-0---|
D||-2-2-0-0h2-|
A||-2-2-0-0h2-|
E||-0-0-0-0---|
             I love you long and I love you well


Verse 3:

                  Am                    Em
So bury me in the kitchen, bury me into stone
                           Am
Oh, bury me everywhere you go
 		      Em
In the shadows of the hallway


Verse 4:

			 Am
A fall we do not longer know,
                      Em
What we can no longer hold
                                          Am
On days like these our heads fill up with smoke
		       Em	
And our memories grow old


Chorus and outro:

                 Am                       Em
Only when you're gone   Only when you're gone
                 Am                                  Em
Only when you're gone   And away   Only when you're gone

                     Am                                    Em
e||---------------------------------------------------------------|
B||---------------------------------------------------------------|
G||---------------------7s9--7s5------------------------5s7----5s4|
D||---------------------------------------------------------------|
A||---------------------------------------------------------------|
E||---------------------------------------------------------------|
   Only when you're gone           Only, only when you're gone

                 Am                                Em       Am
Only when you're gone   And away   Only when you're gone
         Em             Am       Em
Gone away      And gone away  Oh

    Am                                            Em
e||---------------------------------------------------------------|
B||---------------------------------------------------------------|
G||-------5--------------------------------5--7--7s9----9--7--7h9-|
D||----5-----5h7-----7--7p5--5--5h7-----7-------------------------|
A||-7-------------------------------------------------------------|
E||---------------------------------------------------------------|
              Am                                       Em
e||---------------------------------------------------------------|
B||---------------------------------------------------------------|
G||--9--7--5-----------------------------5----------5-------------|
D||-----------5h7----7--7p5--5--5h7--------------5----------------|
A||-------------------------------------------7--------5h7--------|
E||---------------------------------------------------------------|
                                      Am
e||---------------------------------------------------------------|
B||---------------------------------------------------------------|
G||-------------------------------5-------------------------------|
D||--------------------7-------5-----5h7-----5h7--5-----5h7-------|
A||-5h7--5-----5h7----------7------------------------7------------|
E||---------7-----------------------------------------------------|
              Em                                   Am
e||---------------------------------------------------------------|
B||---------------------------------------------------------------|
G||-5-----5--7s9-----7h9--7-----7s9----9--7--5--7-----------------|
D||----7---------------------9---------------------5s7----5s7--5h7|
A||---------------------------------------------------------------|
E||---------------------------------------------------------------|
               Em                     Am
e||---------------------------------------------------------------|
B||---------------------------------------------------------------|
G||-------------------------------5-------------------------------|
D||-7--5-----------------------5-----5h7--------------------------|
A||-------7---5h7-----5h7---7-------------------------------------|
E||---------------------------------------------------------------|