-- Madrugada tabs and pictures
:tabs
 
-- Index
-- About
-- Tabs
-- Pictures
-- Links
 
 
Dumagraad v.2.0 - password needed

Author/Artist:  Madrugada

Title:          Strange colour blue

Album:          Industrial Silence

Transcribed by: DMS & RH


Standard tuning (EADGBE)

~ = tremolo
D = strum down
U = strum up


INTRO:

    Am
     ~~   ~~
e||-0----0--------------------------------------|
B||-1----1--------------------------------------|
G||-2----2--------------------------------------|
D||-2----2--------------------------------------|
A||-0----0--------------------------------------|
E||-0----0--------------------------------------|

    Am               Fmaj7
e||-0-0-0-0-0-0------0-0-0----------------------|
B||-1-1-1-1-1-1---1--1-1-1----------------------|
G||-2-2-2-2-2-2p0-0--2-2-2----------------------|
D||-2-2-2-2-2-2p0-0--3-3-3----------------------|
A||-0-0-0-0-0-0---0--3-3-3----------------------|
E||------------------1-1-1----------------------|


VERSE 1:

    Am               Fmaj7
e||-0-0-0-0-0-0------0-0-0----------------------|
B||-1-1-1-1-1-1---1--1-1-1----------------------|
G||-2-2-2-2-2-2p0-0--2-2-2----------------------|
D||-2-2-2-2-2-2p0-0--3-3-3----------------------|
A||-0-0-0-0-0-0---0--3-3-3----------------------|
E||------------------1-1-1----------------------|
    Blue

Am              Fmaj7
 Strange colour blue
Am        Fmaj7       Am   Fmaj7
 Sixteen tons on the moon
Am   Fmaj7     Am            Fmaj7
Blue          Strange colour blue

Am    Fmaj7

    Am
e||-0-0-0-0-0-0--0-0-0-0-------------------------|
B||-1-1-1-1-1-1--1-0-1-0-------------------------|
G||-2-2-2-2-2-2--2-2-2-2-------------------------|
D||-2-2-2-2-2-2--2-2-2-2-------------------------|
A||-0-0-0-0-0-0--0-0-0-0-------------------------|
E||----------------------------------------------|
Coming back to you

    Fmaj7        Am
e||---0-0-0-0-0--0-0-0-0-------------------------|
B||---1-1-1-1-1--1-1-1-1-------------------------|
G||---2-2-2-2-0--2-2-2-2-------------------------|
D||---3-3-3-3-0--2-2-2-2-------------------------|
A||-3---3-3-3-0--0-0-0-0-------------------------|
E||-1---1-1-1-0----------------------------------|
   Pushing through

Fmaj7     Am
Pouring rain

    Fmaj7        Am     G
e||---0-0-0-0-0--0-0-0----3----------------------|
B||---1-1-1-1-1--1-1-1----3----------------------|
G||---2-2-2-2-2--2-2-2--4-4----------------------|
D||---3-3-3-3-3--2-2-2--5-5----------------------|
A||-3---3-3-3-3--0-0-0--5------------------------|
E||-1---1-1-1-1---------3------------------------|
 Nearly there           Nearly there


    Am        Fmaj7     
e||---------------------1------------|
B||---1-0h1---1p0---------1----------|
G||---------2-----2---------2--------|
D||-----------------3----------------|
A||-0--------------------------------|
E||----------------------------------|
Oh, blue

Am   Fmaj7  Am             Fmaj7   Am
Blue          Strange colour blue
            Fmaj7    Am
Sixteen tons on the moon

    Am      Fmaj7         Am
e||-------------------0-0-0-0--------|
B||-1-0h1---1p0-------1-1-1-1--------|
G||-------2-----2-----2-2-0-2--------|
D||---------------3---3-3-0-2--------|
A||-------------------3-3-0-0--------|
E||-------------------1-1------------|


VERSE 2:

Am               Fmaj7   Am
Hey little mister driver man
               Fmaj7
Keep your head up
  Am     Fmaj     Am
We are nearly there

    F            Am
e||---0-0-0-0-0--0-0-0-0-------------------------|
B||---1-1-1-1-1--1-1-1-1-0-1-0-------------------|
G||---2-2-2-2-0--2-2-2-2-2-2-2-------------------|
D||---3-3-3-3-0--2-2-2-2-------------------------|
A||-3---3-3-3-0--0-0-0-0-------------------------|
E||-1---1-1-1------------------------------------|
        I am racing

F              Am
   Outside and below myself

    F       G      Am            G
e||---1-1-1-3-3-3--0-0-0-----------3-------------|
B||---1-1-1-3-3-3--1-0-1-0---------3-------------|
G||---2-2-2-4-4-4--2-2-2-2-------4-4-------------|
D||---3-3-3-5-5-5--2-2-2---------5-5-------------|
A||-3---3-3-5-5-5--0-0-0---------5---------------|
E||-1---1-1-3-3-3----------------3---------------|
     Nearly forgot myself there  Nearly there


INTERLUDE:

       ~~~                           ~~~
e||-5--5------5----------------------5-----------|
B||-5--5---------5-------------------5-----------|
G||-5--5------------5----------------5-----------|
D||-7--7------------------7----------5-----------|
A||-7--7---------------------7-------7-----------|
E||-5--5------------------------5----5-----------|
  Yeah


Oh, everybody's sleeping now
An industrial silence singing
And the rain will keep hammering down from overhead
Now there's a blue, blue, strange colour blue
Let me dream of me and you
Oh, how the rain keeps coming down
Pour, oh, running down the window
Like a vein on my arm
Oh, running down the window
Like a vein on my arm, yeah

Fmaj7   Am
          This is how we do it
Fmaj7   Am
          This is how we do it
Fmaj7   Am                      G
          This is how we do it     Nearly there
Fmaj7   Am
          This is how we do it
Fmaj7   Am
          This is how we do it
Fmaj7   Am                      G
          This is how we do it     Nearly there


CHORUS:

    Am        Fmaj7
e||---------------------1------------|
B||---1-0h1---1p0---------1----------|
G||---------2-----2---------2--------|
D||-----------------3----------------|
A||-0--------------------------------|
E||----------------------------------|
Oh, blue

Am             Fmaj7       Am
Strange colour, a colour blue
        Fmaj     Am   Fmaj7
Yeah, a colour blue
Am               Fmaj7
Oh, blue blue blue yeah
Am             Fmaj7       Am
Strange colour, a colour blue
         Fmaj7    Am   Fmaj7
Yeah, a colour blue
Am        Fmaj
Oh, blue blue blue, yeah
Am            Fmaj7         Am
Strange colour, a colour blue
       Fmaj7   Am    Fmaj7
Oh, a colour blue
Am               Fmaj7     Am
Hey little mister driver man
                Fmaj7
Keep your head up
   Am   Fmaj7     Am
We are nearly there

Ends with:

e||-------------------0--------------|
B||-1-0h1----1--0--0--1--------------|
G||-------2-----------2--------------|
D||-------------------2--------------|
A||-------------------0--------------|
E||----------------------------------|
           Nearly there