-- Madrugada tabs and pictures
:tabs
 
-- Index
-- About
-- Tabs
-- Pictures
-- Links
 
 
Dumagraad v.2.0 - password needed

Author/Artist:  Madrugada 

Title:          Terraplane

Album:          Industrial Silence

Transcribed by: RH


I think this is correct. Fill in with some picking 
and it's sounds nice.


Barre chords:

    Em   D    C   Bm D Em   D    C   Bm D Em
e||-7----5----3----2-5-7----5----3----2-5-7---------|
B||-8----7----5----3-7-8----7----5----3-7-8---------|
G||-9----7----5----4-7-9----7----5----4-7-9---------|
D||-9----7----5----4-7-9----7----5----4-7-9---------|
A||-7----5----3----2-5-7----5----3----2-5-7---------|
E||-------------------------------------------------|


Easy chords:

    Em   D    C   Bm D Em   D    C   Bm D Em
e||-3----2----0----2-2-3----2----0----2-2-3---------|
B||-5----3----1----3-3-5----3----1----3-3-5---------|
G||-4----2----0----4-2-4----2----0----4-2-4---------|
D||------0----2----4-0------0----2----4-0-----------|
A||-----------3----2-------------3----2-------------|
E||-------------------------------------------------|


INTRO:

Em   D   C   Bm   D  x 3
Em   D   C   Bm


Verse 1:

D       Em   D    C    Bm D Em   D   C   Bm
Lord, throw your mercy  down 
D   Em       D  C    Bm  D     Em    D   C   Bm
And burn, burn me to, to the ground 
D     Em                          D             C     Bm    D
Oh, I'm gonna ride that terraplane to the ground, now
Em                       D         C
I'm gonna ride that terraplane
 Bm               D     Em       D   C   Bm
I'm gonna ride it to the ground
D        Em     D   C   Bm   D   Em   D   C   Bm
To the ground


Verse 2:

D      Em    D     C    Bm D Em
So you send your mercy   down
 D    C           Bm  D
Oh, Oh I'm gonna fall
Em                     D
I'm gonna ride that terraplane
  C                   D             Em      D   C   Bm
I'm gonna ride that terraplane to the ground
D         Em   D   C   Bm   D
To the ground

Em   D   C   Bm   D  x 3

Em   D   C   Bm   D   Em   D   C   Bm
     Oh...


Chorus:

D      Em          D             C
  I'm gonna ride that terraplane
  Bm                D     Em    D   C   Bm
I'm gonna ride it to the ground
D      Em          D             C
  I'm gonna ride that terraplane
  Bm                D     Em
I'm gonna ride it to the ground