-- Madrugada tabs and pictures
:tabs
 
-- Index
-- About
-- Tabs
-- Pictures
-- Links
 
 
Dumagraad v.2.0 - password needed

Author/Artist:  Madrugada

Title:          Sirens

Album:          Industrial Sirens

Transcribed by: RH


Asus4: x02230
Asus2: x02200

Main Rhytm:

    Am
e||-0---0---0---0---0--0--0--0---0---0---0---0---0---0---0--0--0---0--|
B||-1---1---1---1---1--1--1--1---1---1---1---1---1---1---1--1--1---1--|
G||-2---2---2---2---2--0--0--0---2---2---2---2---2---2---0--0--0---2--|
D||-2---2---2---2---2--0--0--0---2---2---2---2---2---2---0--0--0---2--|
A||-0---0---0---0---0--0--0--0---0---0---0---0---0---0---0--0--0---2--|
E||-------------------------------------------------------------------|


Main Riff:

e||-----------8-----7--------------------------8-----7----------------|
B||----10------------------10--8h10-----10------------------10--8h10--|
G||--------9-----9------9-------------------9-----9------9------------|
D||-7--------------------------------7--------------------------------|
A||-------------------------------------------------------------------|
E||-------------------------------------------------------------------|


Intro:

Am


Verse 1:

Am
Well hearts belong
Like rock and skin
At peace with evil
And all within
A shadow looms above the river
And fire sweeps across the land
Our bones are twisted in their sockets
                               Em
And even we must try to stand alone
              Am
Right here alone yeah


Verse 2:

Am
Fire in wirk beneath your skin
Forever let us sleep
'Till sirens tear the night wide open
And even we awake, love


Bridge:
      C
Oh listen
   Em          Am
The world is awake
                        C
Oh, it's time for the tellers to rise 
       Em               Am
And the blood of the anciest 


Chorus and outro:

Em 
Heeey alone...alone..alone...alone
                Am
Hear my ban with evil 
     Em
And alone
            Am              Am
Right here alone, yeah

[Asus4 Am Asus2 Am} x 3

Em
Alone
Am
Alone, yeah
Em          Am
Lone, lone lone

Ends on: Am