-- Madrugada tabs and pictures
:tabs
 
-- Index
-- About
-- Tabs
-- Pictures
-- Links
 
 
Dumagraad v.2.0 - password needed

Author/Artist:  Madrugada 

Title:          Departure #1

Album:          Unreleased

Transcribed by: RH


Heard on Live in Lowland bootleg.
You can listen to the concert on this link:
http://pages.vpro.nl/3voor12/concerts/concert.shtml?2534202+2584688+2584508+2540276+4032872
Very easy, but still a good song.


Intro:   Em

Verse 1: Em  G  Em  G  Em(With riff) * 2

Verse 2: Em  G  Em  G  Em  G  Em(With riff) *4

Outro:   Em  G  Em  G



How to play Em?(This is how Em is played almost all the time):
    
e||-0--0-0-0--0-0-0--0-0-0-0-0-0-0---------------------------|
B||-0--0-0-0--0-0-0--0-0-0-0-0-0-0---------------------------|
G||-0--0-0-0--0-0-0--0-0-0-0-0-0-0---------------------------|
D||-2--2-0-2--2-0-2--2-0-2-0-2-0-2---------------------------|
A||-2--2-0-2--2-0-2--2-0-2-0-2-0-2---------------------------|
E||-0--0-0-0--0-0-0--0-0-0-0-0-0-0---------------------------|


(Em riff maybe played something like this little lick):
                               
e||------------------------------|
B||-------0----------------------|
G||----2-----2--0h2-0--0h2-0-----|
D||-2----------------------------|
A||------------------------------|
E||------------------------------|

How to play G?(I'm not sure, but I think when you play the G thing, 
you first play G:320033 and then G/B:200033)