-- Madrugada tabs and pictures
:tabs
 
-- Index
-- About
-- Tabs
-- Pictures
-- Links
 
 
Dumagraad v.2.0 - password needed

Author/Artist:  Madrugada 

Title:          Electric

Album:          Industrial silence

Transcribed by: DMS og RH


Standard tuning (EADGBE)

The lyrics are copied from a Madrugada page. Nothing is 100%, but it's
much better than the last version of this tab. The solo follows a scale
in A minor.

Intro:

    C               Am              Em                G

e||-----------------------------------0--------------------------------|
B||---1-------1-------1--------1-0------0-----0----------3-------3p0---|
G||-----0-------0-------2-----------------------0----------0-----------|
D||--------------------------2--------------------2--------------------|
A||-3-------3-------0------0-------------------------------------------|
E||---------------------------------0--------0--------3--------3-------|


    C                Am             Em                G

e||--------------------------------------------------------------------|
B||---1-------1--------1-------1-0----0-------0----------3-------3-----|
G||-----0-------0--------2--------------0-------0----------0-------0---|
D||---------------2-------------------------------2--------------------|
A||-3-------3--------0-------0-----------------------------------------|
E||---------------------------------0--------0--------3--------3-------|


Verse 1:

    C                Am             Em                G

e||-----------------------------------0----------------------------3-----|
B||---1-------1--------1-------1-0------0-----0----------3-----------3---|
G||-----0-------0--------2----------------------0----------0-----------0-|
D||---------------2-------------------------------2--------------0-------|
A||-3-------3--------0-------0-------------------------------------------|
E||---------------------------------0--------0--------3--------3---------|

    C                Am             Em                G

e||--------------------0--------------0----------------------------------|
B||---1-------1----------1-------0------0-----0----------3-------3-------|
G||-----0-------0-------------------------------0----------0-------------|
D||---------------2-------------------------------2----------------------|
A||-3-------3--------0-------0-------------------------------------------|
E||---------------------------------0--------0--------3--------3---------|


Last part of verse:

    C                       Am
  
e||-------0-----------0-----------0-----------0------------------------|
B||-----1---1-------1---1-------1---1-------1---1----------------------|
G||---0-------0---0-------0---2-------2---2-------2--------------------|
D||--------------------------------------------------------------------|
A||-3-----------3-----------0-----------0------------------------------|
E||--------------------------------------------------------------------|

    Em                      G
  
e||-------0-----------0-----------3-----------3------------------------|
B||-----0---0-------0---0-------3---3-------3---3----------------------|
G||---0-------0---0-------0---0-------0---0-------0--------------------|
D||--------------------------------------------------------------------|
A||--------------------------------------------------------------------|
E||-0-----------0-----------3-----------3------------------------------|


Chorus(Play something like Fig 2 at the end of the chorus):

    F           G           Am          F
  
e||-------1-----------3-----------0-----------1-------------|
B||-----1---1-------3---3-------1---1-------1---1-----------|
G||---2-------2---0-------0---2-------2---2-------2---------|Fig 1
D||---------------------------------------------------------|
A||-------------------------0-------------------------------|
E||-1-----------3-----------------------1-------------------|


    F           G           Am          
  
e||-------1-----------3-----------0-----0-------0-----------|
B||-----1---1-------3---3-------1---1-----1---1---1---------|
G||---2-------2---0-------0---2-------2-----2---------------|Fig 2
D||---------------------------------------------------------|
A||-------------------------0-------------------------------|
E||-1-----------3-------------------------------------------|



Bridge:

    C                Am             Em                G

e||----------------------------------0------------------3-------------|
B||---1-------1-------1-------1-0------0-----0------------3-----3-----|
G||-----0-------0-------2----------------------0------------------0---|
D||----------------------------------------------2------------------0-|
A||-3-------3-------0-------0-----------------------------------------|
E||--------------------------------0--------0--------3--------3-------|


Verse 2:

    C                  Am           Em                G

e||----------------------0--------------------0----------------3-------|
B||---1---------1----------------0----0---------0--------3---------3---|
G||-----0---------0---------------------0---------0--------0-----------|
D||-----------2-----2----------------------------------------0---------|
A||-3-------3----------0-----------------------------------------------|
E||---------------------------------0--------0--------3----------------|

    C                 Am        Em                G

e||------------------------0------0------------------------3-----------|
B||---1-------1---------1----0------0-----0----------3---------3-------|
G||---0---------0---------------------------0----------0---------------|
D||-------------------------------------------2----------0-------------| 
A||-3-------3---------0------------------------------------------------|
E||-----------------------------0--------0--------3--------------------|


Outro:

    C              Am             Em                G

e||--------------------------0---------------------------------------|
B||---1-------1------1---------0----0-------0----------3-------3-----|
G||-----0-------0------2--------------0-------0----------0-------0---|
D||---------------------------------------------2--------------------|
A||-3-------3------0-------0-----------------------------------------|
E||-------------------------------0--------0--------3--------3-------|

    C              Am             Em                G

e||---------------------------------0--------------------------------|
B||---1-------1------1---------0------0-----0----------3-------------|
G||-----0-------------------------------------0----------0-----------|
D||---------------------------------------------2--------------------|
A||-3-------3------0-------0-----------------------------------------|
E||-------------------------------0--------0--------3----------------|


Solo:

e||------------------------------------------------------------|
B||-----------------------------------8----8-------------------|
G||---------5---5--5--7-----7/b9--------b9-----b9r9-----7/b9---|
D||------5----5------------------------------------------------|
A||-5h7--------------------------------------------------------|
E||------------------------------------------------------------|

e||-8-----8-------8--------------------------------------------|
B||----8--------8---8h10-8----8-8-8h10-8-----------------------|
G||----------------------------------------9--9--7--7--7-------|
D||------------------------------------------------------------|
A||------------------------------------------------------------|
E||------------------------------------------------------------|

e||------------------------------------------------------------|
B||------------------------------------------------------------|
G||----------------------------5---5-7-7/b9r9-9br-9br-5--------|
D||-----5-5h7-5-------5-5h7-5----------------------------------|
A||-5h7-----------5h7------------------------------------------|
E||------------------------------------------------------------|

e||-----------------------------8---8--------------------------|
B||-------------------------------8---8------------------------|
G||-----------5-------5-7/9b-------------b7-b7r7---5---5h7-5---|
D||-----5-5h7-----5h7------------------------------------------|
A||-5h7--------------------------------------------------------|
E||------------------------------------------------------------|



Intro:
C - Am - Em - G
C - Am - Em - G


Verse 1:

C               Am
Pack your bags, run away
Em             G
on a freeway - out of town

C             Am
Where you'd like - and the night
Em             G
is over - it's all right

(Change riff)

C             Am
From despair - between the sheets
   Em             G
Spilling over - spinning round

C             Am
Waiting still - in the street
Em                G
Aint it better - aint it sweet


Chorus:

F         G             Am       F
Holding, holding on to you - again
F         G             Am       F
Holding, holding on to you - again
F            G               Am
No rushing, don't rush it, my love
F         G         
Holding, holding on to you


Bridge


Verse 2:

Bet you lie - on your back
In the backseat - of his car

Cattle black, pepper night
Dylan Thomas, pass around

(Change riff)

Passin' out - on the floor
In the bathroom - black light vail

We don't need once again
Sing the song, sing Drink the wine, love


Chorus

Em                Am
Oh how long do we stay in there
Em                       Am
Well I can't believe my eyes
      Em                 Am
Well how long did I take this
        G
Well I can't hold on, no
F        G        Am          F
Holding, holding on to you again
F        G        Am          Am
Holding, holding on to you again
F        G         Am
I'm ready, I'm ready, my love
F      G           
Holding, holding on to you 


Solo(played together with outro):