-- Madrugada tabs and pictures
:tabs
 
-- Index
-- About
-- Tabs
-- Pictures
-- Links
 
 
Dumagraad v.2.0 - password needed

Author/Artist:  Madrugada

Title:          The Kids Are On High Street

Album:          The Deep End

Transcribed by: RH


This is the album version from "The Deep end. 
On the live album "Live at Tralfamadore" they play it in Bm 
and you have to place your capo on the 2nd fret.

Chords(With capo on third fret):
Cm: x35543
D#: x65343
A#: 653366
Fm: xx3564
G#: 466544

Chords(Without capo):
Cm: x35543
D#: x68886
A#: 688766
Fm: 133111
G#: 466544

INTRO
Cm


VERSE 1
               D#
in a way called some change

               A#       Cm
stones in the pipeline

                 D#
like some new mountain range

                  A#
leave the lowlands behind

Fm               Cm
   they take your photograph

A#            G#        A#
   you come into existence

Fm               Cm
   you realize it's your path

A#        G#        A#
  in this very instant


SOLO 1
Cm  D#  A# x2


VERSE 2
some heroes are we
to pass outside these gates
when I well to adjust
adjust to what it takes

you add another year to this
and it has all gone to waste
all the plans have been laid
to pursuit your own separate faiths

they take your photograph
you come into existence
you realize it's your path
in this very instant

SOLO 2
Cm D#   A# x2
Fm Cm A# G# A# x2


VERSE 3
Cm
               D#
the kids are on high street

                   A#            Cm
the kids will not sleep tonight

               D#
the kids got in a knife fight

                                     A#
we trained them well, they're gonna be alright


i'll be joining with them soon
i can't even wait to get away from you

cause it's only in heidsight
that we will know what was right to do
i always thought we had it made
ambitions burned the plans we laid

they take your photograph
you come into existence
you realize it's your path
in this very instant

OUTRO
Cm D#   A# x2
Fm Cm A# G# A# x2

Ends on Cm



INTRO/VERSE 1 Riff
    Cm                                          D      A#
e||-------6--3----------------------6--3--------------------------|
B||-------------6-4---3-4-6-4-3-4---------6-4---------------------|
G||---------------------------------------------------------------|
D||---------------------------------------------------------------|
A||---------------------------------------------------------------|
E||---------------------------------------------------------------|
    Cm            D                  A#      Fm     Cm   A# G# A#
e||---6--3-----------------------------------4------3-------------|
B||---------6-4----3h4--4-6-4-3-4--------------6------4-----------|
G||---------------------------------------------------------------|
D||---------------------------------------------------------------|
A||---------------------------------------------------------------|
E||---------------------------------------------------------------|
    Fm     Cm   A# G# A#
e||-4------3------------------------------------------------------|
B||---6------4----------------------------------------------------|
G||---------------------------------------------------------------|
D||---------------------------------------------------------------|
A||---------------------------------------------------------------|
E||---------------------------------------------------------------|

SOLO 1

    Cm                    D#                                A#
e||---------------------------------------------------------------|
B||---------------------------------------------------------------|
G||---------------------------------------------------------------|
D||---------10-10-10s12-10-8----------8---8--8--------------------|
A||-----------------------------8h10------------10--10---8s10--8--| x2
E||---------------------------------------------------------------|

e||---------------------------------------------------------------|
B||---------------------------------------------------------------|
G||---------------------------------------------------------------|
D||---------------------------------------------------------------|
A||-8/10--8--10---------------------------------------------------|
E||---------------------------------------------------------------|

SOLO 2

   Cm                    D#                               A#
e||---------------------------------------------------------------|
B||---------------------------------------------------------------|
G||---------------------------------------------------------------|
D||----10---10-10-10s12-10-8----------8---8--8--------------------|
A||-----------------------------8h10------------10--10---8s10--8--|
E||---------------------------------------------------------------|

   Cm                    D#                         A#
e||---------------------------------------------------------------|
B||---------------------------------------------------------------|
G||---------------------------------------------------------------|
D||----10---10-10-10s12-10-8----------8--10br---8--10s12--10-8----|
A||-----------------------------8h10------------------------------|
E||---------------------------------------------------------------|

      Fm                      Cm          A#        G#        A#
e||---------------------------------------------------------------|
B||---------------------------------------------------------------|
G||---------------------------------------------------------10s12-|
D||----10---10--12--13--12--10--------------10--12-13-12-13-------|
A||-----------------------------10--10--8-------------------------|
E||---------------------------------------------------------------|
      Fm                      Cm          A#        G#        A#
e||------------11-------------------------------------------------|
B||-11----11------11----------------------------------------------|
G||----12------------12--10-10s8-8-8-10-7-7-7-8s7-----------------|
D||-----------------------------------------------10-10--10---10p8|
A||---------------------------------------------------------------|
E||---------------------------------------------------------------|

e||---------------------------------------------------------------|
B||---------------------------------------------------------------|
G||---------------------------------------------------------------|
D||-8--8---10-12brbrbr--------------------------------------------|
A||---------------------------------------------------------------|
E||---------------------------------------------------------------|

OUTRO RIFF(Also played in last verse and chorus):
    Cm            D#                     A#
e||---------------------------------------------------------------|
B||---------------------------------------------------------------|
G||---------------------------------------------------------------|
D||----------------5---5-6-5----5---5-6-5-------------------------|
A||-3--5s6s5-3-5s6---6--------6---6---------5---6--6s8-6-5--------|  x2
E||---------------------------------------6---6-------------------|
    Fm   Cm          A#      G#   A#
e||---------------------------------------------------------------|
B||---------------------------------------------------------------|
G||---------------------------------------------------------------|
D||---------------------------------------------------------------|
A||-3---5s6s5-5-3--5--------6p5-3-5-6-----------------------------|
E||-------------------6--4----------------------------------------|
    Fm   Cm          A#      G#   A#                        Cm
e||---------------------------------------------------------------|
B||---------------------------------------------------------------|
G||---------------------------------------------------------------|
D||---------------------------------------------------------------|
A||-3---5s6s5-5-3--5--------6p5-----------------------5s6-5-3-----|
E||-------------------6--4------6--6--6-6-6-6-6-6-6-6-------------|