-- Madrugada tabs and pictures
:tabs
 
-- Index
-- About
-- Tabs
-- Pictures
-- Links
 
 
Dumagraad v.2.0 - password needed

Author/Artist:  Madrugada

Title:          Hard To Come Back

Album:          The Deep End, Live At Tralfamadore

Transcribed by: Oddgeir Austad


Intro: 
   Dm                  C         G
|--1-1-1-----1-1-1-----0-0-0-----3-3-3----|
|--3-3-3-----3-3-3-----1-1-1-----3-3-3----|
|--2-2-2-----2-2-2-----0-0-0-----0-0-0----|
|----------------------2-2-2-----0-0-0----|
|----------------------3-3-3-----2-2-2----|
|--------------------------------3-3-3----|

Repeat twice

Main riff:
   Dm
|--1-0-1-0-1-0-1-0-1-0-1-0-1-3-1-0--|
|--3-3-3-3-3-3-3-3-3-3-3-3-3-3-3-3--|
|--2-2-2-2-2-2-2-2-2-2-2-2-2-2-2-2--|
|-----------------------------------|
|-----------------------------------|
|-----------------------------------|

  G
|------3--3-------3--3-------3--3-------3--3----|
|------3--3-------3--3-------3--3-------3--3----|
|------0--0-------0--0-------0--0-------0--0----|
|------0--0-------0--0-------0--0-------0--0----|
|------2--2-------2--2-------2--2-------2--2----|
|-3-3--------3-3--------3-3--------3-3----------|


Verse:

   F     G
|--1-----3--|
|--1-----3--|
|--2-----4--|
|--3-----5--|
|--3-----5--|
|--1-----3--|

Just strum these chords, listen to the song for timing.

Solo not tabbed

End on Dm