-- Madrugada tabs and pictures
:tabs
 
-- Index
-- About
-- Tabs
-- Pictures
-- Links
 
 
Dumagraad v.2.0 - password needed

Author/Artist:  Madrugada 

Title:          Norwegian Hammerworks Corp.

Album:          Industrial silence

Transcribed by: DMS


Standard tuning (EADGBE)


Intro-variation:

e||-----------------------------------------------------------------------|
B||-----------------------------------------------------------------------|
G||-----------2--2--2-2-2-2--2-2--2-2-2--2--2--2-2-2-2--2-2--2-2-2--------|
D||-----------2--2--2-2-2-2--2-2--2-2-2--2--2--2-2-2-2--2-2--2-2-2--555---|
A||--7s2p0----0--0--0-0-0-0--0-0--0-0-0--0--0--0-0-0-0--0-0--0-0-0--555---|
E||-----------------------------------------------------------------333---|


End intro-variation and start with main riff:

e||--------------------------------------------------------------|
B||--------------------------------------------------------------|
G||--2--2--2-2-2-2--2-2--2-2-2--5--5--5-5-5-5--5-5--5-5-5--/9-9--|
D||--2--2--2-2-2-2--2-2--2-2-2--5--5--5-5-5-5--5-5--5-5-5--/9-9--|
A||--0--0--0-0-0-0--0-0--0-0-0--3--3--3-3-3-3--3-3--3-3-3--/7-7--|
E||--------------------------------------------------------------|

e||----------------------------------------------------|
B||----------------------------------------------------|
G||-------------------5555--2--2--2-2-2-2--2-2---------|
D||--3--3-3-3-3--3-3--5555--2--2--2-2-2-2--2-2--555----|
A||--3--3-3-3-3--3-3--3333--0--0--0-0-0-0--0-0--555----|
E||--1--1-1-1-1--1-1----------------------------333----|


Last Riff (5:10):

e||----------------------------------------------------|
B||----------------------------------------------------|
G||-------------------5555--22--22--22--22---2---2---2-|
D||--3--3-3-3-3--3-3--5555--22--22--22--22---2---2---2-|
A||--3--3-3-3-3--3-3--3333--00--00--00--00---0---0---0-|
E||--1--1-1-1-1--1-1-----------------------------------|