-- Madrugada tabs and pictures
:tabs
 
-- Index
-- About
-- Tabs
-- Pictures
-- Links
 
 
Dumagraad v.2.0 - password needed

Author/Artist:  Madrugada 

Title:          Stories from the street

Album:          The Deep End

Transcribed by: RH


Standard tuning (EADGBE)
Capo on third fret. I will make a rhytm figure for the intro/verse/chorus later.

Fm:xx0231
S = Slide

Intro Riff:

    Cm               
e||----------------------------------------------------------------|
B||----------1s3-1-----------1s3-1-----------1s3-1-----------1s3-1-|
G||-------2--2s4-2--------2--2s4-2--------2--2s4-2--------2--2s4-2-|
D||----2-----2s4-2-----2-----2s4-2-----2-----2s4-2-----2-----2s4-2-|
A||-0---------------0---------------0---------------0--------------|
E||----------------------------------------------------------------|

    G
e||-------------------------------------------------0-|
B||-------------------------------------------------0-|
G||----------1s2-1-----------1s2-1-----------1s2-1--1-|
D||-------2--2s3-2--------2--2s3-2--------2--2s3-2--2-|
A||----2-----2s3-2-----2-----2s3-2-----2-----2s3-2--2-|
E||-0---------------0---------------0---------------0-|


Cm  G


Verse:

Cm  G


Interlude (1:18 and 3:02):

Fm  G  x2


Interlude 2 (3:57):

Intro Riff x2


Verse:

Cm  G

Ends on Cm