-- Madrugada tabs and pictures
:tabs
 
-- Index
-- About
-- Tabs
-- Pictures
-- Links
 
 
Dumagraad v.2.0 - password needed

Author/Artist:  Sivert H°yem

Title:          Arcadians

Album:          Exiles

Transcribed by: RH


Standard tuning (EADGBE)

Lyrics from www.Siverthoyem.com


Intro:


e||-------------------------------------------------0-------------------|
B||-2-----------3-----------2---------------0----------0---0h2----------|
G||-----2-----------2-----------2-------------------------------------2-|
D||---------2-----------2-----------2-----------------------------------|
A||-0-----------0-----------0---------------0---------------------------|
E||---------------------------------------------------------------------|

e||----------------------------------------------------0----------------|
B||-2-----------3-----------2---------------0--------------0h2----------|
G||---------------------------------2---------------2-------------------|
D||---------------------------------------------------------------------|
A||-0-----------0-----------0---------------0---------------------------|
E||---------------------------------------------------------------------|


Verse: 


e||---------------------------------------------------0----------|
B||-2-----------3-----------2-----------------0----------0---0h2-|
G||-----------------------------2---------2----------------------|
D||-----------------------------------2--------------------------|
A||-0-----------0-----------0-----------------0------------------|
E||--------------------------------------------------------------|
    Wows  that  have been   broken.        Can't be made anew  


e||------------------------------------------------------------------------------------|
B||-2-----------3-----------2-----------------------------------------------2----------|
G||--------------------------------2------------------------------------2-------2------|
D||---------------------------------------------0-----------0-------2---------------2--|
A||-0-----------0-----------0---------------2-----------0-------0----------------------|
E||-------------------------------------3-----------2----------------------------------|
    I must turn now to anyone.         In the absence   of    you

E                                                  A
 There she stands in the doorway and she calls me in.

Bm                 D                 A
  Some bitter awakining, this all has been

She sits on a wooden floor, her house is down a stream
Trees hush in the nightsky, it' like you're dreaming in a dream.
And more sweetniess awaits
In the arms and loins of sin
Some bitter awaikening this all has been


Chorus:
D         A     E        A     D        A
  Arcadians,     Arcadians,     Arcadians
E           D           A
  We're all Arcadians all


Solo:

           Bm                    E               A
e||-------------------------------------------------------------|
B||-------------------------------------------------------------|
G||-------------------------------------------------------------|
D||-7b(9)----s9--------9s12-----11---7s9------------------------|
A||---------------------------------------------b7r(9)----------|
E||-------------------------------------------------------------|

           Bm                    D                E
e||-------------------------------------------------------------|
B||-------------------------------------------------------------|
G||-------------------------------------------------------------|
D||--7b(9)----s9--------9s12-----11---7-------------------------|
A||----------------------------------------7s9---9br(11)s7------|
E||-------------------------------------------------------------|


Interlude:

e||-------------------------------------------------0-----------|
B||-2-----------3-----------2---------------0----------0---0h2--|
G||-------------------------------------------------------------|
D||-------------------------------------------------------------|
A||-0-----------0-----------0---------------0-------------------|
E||-------------------------------------------------------------|

e||-------------------------0-----------------------0-----------|
B||-2-----------3-------------------2-------0----------0---0h2--|
G||-------------------------------------------------------------|
D||-------------------------------------------------------------|
A||-0-----------0-----------0---------------0-------------------|
E||-------------------------------------------------------------|



Verse 2:

e||-------------------------------------------------0-----------|
B||-2-----------3-----------2---------------0----------0---0h2--|
G||-----------------------------2-------2-----------------------|
D||---------------------------------2---------------------------|
A||-0-----------0-----------0---------------0-------------------|
E||-------------------------------------------------------------|
     Holy        was       the ground,     where two people met


e||------------------------------------------------------------------------------------|
B||-2-----------3-----------2-----------------------------------------------2----------|
G||--------------------------------2------------------------------------2-------2------|
D||---------------------------------------------0-----------0-------2---------------2--|
A||-0-----------0-----------0---------------2-----------0-------0----------------------|
E||-------------------------------------3-----------2----------------------------------|
    They   came from a different place, that   they    would     soon forget

E                                                     A
 Guess you sacrifice some things, when you play to win
Bm                         D                   A
 You take what you can't use and you trade it in
E                                          A 
 But soon you'll be going for most anything

Bm                 D                 A
  Some bitter awakining, this all has been

Bm                 D                 A
  Some bitter awakining, this all has been

Chorus:
D         A     E        A     D        A
  Arcadians,     Arcadians,     Arcadians
E           D           A
  We're all Arcadians all


Outro:

e||-----------------------------------------------0------------|
B||-2-----------3-----------2---------------0--------0---0h2---|
G||-----------------------------2-------2----------------------|
D||---------------------------------2--------------------------|
A||-0-----------0-----------0---------------0------------------|
E||------------------------------------------------------------|

e||-------------0-------------------0--------------|
B||-2-----3-----------2-----0--------------0-----2-|
G||------------------------------------------------|
D||------------------------------------------------|
A||-0-----0-----------0-----0----------------------|
E||------------------------------------------------|