-- Madrugada tabs and pictures
:tabs
 
-- Index
-- About
-- Tabs
-- Pictures
-- Links
 
 
Dumagraad v.2.0 - password needed

Author/Artist:  Sivert H°yem

Title:          Into The Sea

Album:          Exiles

Transcribed by: RH


Standard tuning (EADGBE)

D#/C#: x53343


Capo on 3 freet


Intro rhytm (0:00 - 0:21)

    Cm                D#                G#
e||-3---3---3---3--3--3---3---3---3--3--4---4---4---4---4--------4---4---4---4------3-|
B||-4---4---4---4--4--4---4---4---4--4--4---4---4---4---4--------4---4---4---4---4--4-|
G||-5---5---5---5--3--3---3---3---3--3--5---5---5---5---5--------5---5---5---5---5--3-|
D||-5---5---5---5--3--5---5---5---5--3--6---6---6---6---6--3--6--6---6---6---6---6--3-|
A||-3---3---3---3--3--6---6---6---6--3--6---6---6---6---6--------6---6---6---6---6--3-|
E||-3-----------------------------------4---4---4---4---4--------4---4---4---4--------|

    Cm                      D#                      G#
e||-3---3---3---3-----------3---3---3---3-----------4---4---4---4---4--------4---4---4---4---4----------|
B||-4---4---4---4--4-4-4-4--4---4---4---4--4-4-4-4--4---4---4---4---4--------4---4---4---4---4--4-4-4-4-|
G||-5---5---5---5--3-3-3-3--3---3---3---3--3-3-3-3--5---5---5---5---5--------5---5---5---5---5--3-3-3-3-|
D||-5---5---5---5--3-3-3-3--5---5---5---5--3-3-3-3--6---6---6---6---6--3--6--6---6---6---6---6--3-3-3-3-|
A||-3---3---3---3--3-3-3-3--6---6---6---6--3-3-3-3--6---6---6---6---6--------6---6---6---6---6--3-3-3-3-|
E||-3-----------------------------------------------4---4---4---4---4--------4---4---4---4---4----------|


Verse Rhytm (0:21 - 0:40)

    Cm                      D#                G#
e||-3---3---3---3-----------3---3---3---3--3--4---4---4---4---4-----------4---4---4---4---4----------|
B||-4---4---4---4--4-4-4-4--4---4---4---4--4--4---4---4---4---4--4-4-4-4--4---4---4---4---4--4-4-4-4-|
G||-5---5---5---5--3-3-3-3--3---3---3---3--3--5---5---5---5---5--3-3-3-3--5---5---5---5---5--3-3-3-3-|
D||-5---5---5---5--3-3-3-3--5---5---5---5--3--6---6---6---6---6--3-3-3-3--6---6---6---6---6--3-3-3-3-|
A||-3---3---3---3--3-3-3-3--6---6---6---6--3--6---6---6---6---6--3-3-3-3--6---6---6---6---6--3-3-3-3-|
E||-3-----------------------------------------4---4---4---4---4-----------4---4---4---4---4----------|

    Cm                D#                         G#
e||-3---3---3---3--3--3--3---3---3---3-----------4---4---4---4---4-----------4---4---4---4---4----------|
B||-4---4---4---4--4--4--4---4---4---4--4-4-4-4--4---4---4---4---4--4-4-4-4--4---4---4---4---4--4-4-4-4-|
G||-5---5---5---5--3--3--3---3---3---3--3-3-3-3--5---5---5---5---5--3-3-3-3--5---5---5---5---5--3-3-3-3-|
D||-5---5---5---5--3--5--5---5---5---5--3-3-3-3--6---6---6---6---6--3-3-3-3--6---6---6---6---6--3-3-3-3-|
A||-3---3---3---3--3--6--6---6---6---6--3-3-3-3--6---6---6---6---6--3-3-3-3--6---6---6---6---6--3-3-3-3-|
E||-3--------------------------------------------4---4---4---4---4-----------4---4---4---4---4----------|


Intro:

Cm  D#  G#  x2

Verse and Chorus:

Cm  D#  G#

Bridge:

G#  D#  G#  D#  G# D#  D#/C#  Cm D# G#